Tablatura – Aprenda Como Ler e Escrever

COMO LER E ESCREVER TABLATURA

UM GUIA PARA NOTAÇÃO DE TABLATURA

 
 

Conteúdo

  • O que é TABLATURA
  • O que uma TABLATURA irá dizer a você
  • A TABLATURA não vai te dizer .

Guia de leitura

  • Notação TABLATURA – O básico
  • Outros símbolos usados ​​em TABLATURA
  • Hammer ons e pull offs
  • Curvas
  • Slides
  • Informações de comprimento de nota

Guia de escrita

  • Começando
  • Para tabular ou não tabular
  • Coisas a fazer ao escrever TABLATURAS
  • Coisas para evitar

O que é TABLATURA

TAB ou TABLATURA é um método de escrever música. Em vez de usar símbolos como na notação musical padrão, ele usa Caracteres e números ASCII, o que o torna ideal para lugares como a Internet onde qualquer pessoa com qualquer computador pode se conectar, copiar um arquivo TAB e lê-lo.

O que a TABLATURA irá dizer a você

TAB dirá quais notas tocar, ele dirá em qual corda bater e com que preocupação.

TAB irá dizer onde os hammer-ons, pull-offs, bends, slides, harmônicos e vibrato são usados.

A TABLATURA de violão irá dizer-lhe em que afinação a peça está. Se isto não for fornecido explicitamente, assuma o ajuste normal. Assim, a tablatura também deve fornecer informações sobre o uso de capos etc.

Portanto, a tablatura dará a você uma indicação do ritmo da peça, ou seja, dirá você quais são as notas longas e quais são as notas curtas.

No entanto, não lhe dirá exatamente quanto tempo ou quão curtos eles são.

Isso me leva a …

O que TABLATURA não vai te dizer

TAB (geralmente) não informa a duração das notas. Então, na maioria casos você terá que ouvir a música sozinho , com o TAB na frente de vocês para trabalhar o ritmo das notas ou acompanhar seu instrutor de violão.

TAB não dirá quais dedos você usa para interferir em qual nota.

Tablatura de violão não vai dizer nada sobre tocar, você terá que decidir por si mesmo onde usar movimentos para cima / para baixo e assim por diante. Dessa forma, você vai precisar de instrutor, aulas online, vídeos… para acompanhamento.


Tablatura  Violão – Como Ler

 

Notação TABLATURA – o básico

Tablatura violão é simples de ler e deve ser simples de escrever se você quiser enviar uma música que você mesmo elaborou. A ideia é esta:

Você começa com 6 linhas (ou quatro para o baixo). Estes correspondem às cordas do instrumento. Dessa forma, a linha superior é a corda de maior afinação, e a inferior line é a corda com o tom mais baixo. Abaixo está um pedaço em branco de tablatura violão com o nome das cordas à esquerda.

E ------------------------------------------------- ---------------

B ------------------------------------------------- ---------------

G ------------------------------------------------- ---------------

D ------------------------------------------------- ---------------

A------------------------------------------------- ---------------

E ------------------------------------------------- ---------------

Os números são escritos nas linhas para mostrar onde friccionar a corda com a mão esquerda. Se aparecer um zero, isso significa tocar a corda aberta (sem pressionar a corda). Assim, como a notação musical padrão, você lê da esquerda para a direita para encontrar a ordem de tocar as notas. Então, a seguinte parte do TAB significaria toque a sequência de notas (EFF # GG # A) na corda E inferior por movendo-se um traste de cada vez, começando com a corda aberta.

E ------------------------------------------------- ---------------

B ------------------------------------------------- ---------------

G ------------------------------------------------- ---------------

D ------------------------------------------------- ---------------

A------------------------------------------------- ---------------

E --- 0--1--2--3--4--5 ------------------------------ ---------------

OK até agora ?
Aqui temos notas sendo tocadas uma de cada vez. Entretanto, se duas ou mais notas devem ser tocados juntos, eles são escritos um em cima do outro, novamente como a notação padrão.
No próximo exemplo, temos um acorde de barra G.

E ---- 3 -------------------------------------------- ---------------

B ---- 3 -------------------------------------------- ---------------

G ---- 4 -------------------------------------------- ---------------

D ---- 5 -------------------------------------------- ---------------

A ---- 5 -------------------------------------------- ---------------

E ---- 3 -------------------------------------------- ---------------

Portanto, isso significa tocar todas essas notas juntas como um acorde.

Você pode ver o mesmo acorde escrito assim:

E -------- 3 ---------------------------------------- ---------------

B ------- 3 ----------------------------------------- ---------------

G ------ 4 ------------------------------------------ ---------------

D ----- 5 ------------------------------------------- ---------------

A ---- 5 -------------------------------------------- ---------------

E --- 3 --------------------------------------------- ---------------

O que significaria dedilhar a mesma forma começando na corda inferior, então que cada corda seja tocada um pouco depois da última corda, mas todas as notas tocarão juntos. Abaixo está um exemplo da mesma forma novamente, mas agora as lacunas entre as notas são maiores . Então você provavelmente escolheria o cordas separadamente em vez de dedilhar lentamente a forma.

E ------------------ 3 ------------------------------ ---------------

B --------------- 3 ----- 3 --------------------------- ---------------

G ------------ 4 ----------- 4 ------------------------ ---------------

D --------- 5 ----------------- 5 --------------------- ---------------

A ------ 5 ----------------------- 5 ------------------ ---------------

E --- 3 ----------------------------- 3 --------------- ---------------

 

Você pode se perguntar vendo a tablatura violão – Como sei quão rápido ou lento devo tocar isso? Todas as notas devem ter a mesma duração? 

É aqui que TAB difere da notação padrão. Na maioria das vezes TAB vai não dar-lhe qualquer informação sobre os comprimentos de notas. Dessa forma, geralmente resta a você ouvir a música para pegar o ritmo. No entanto, não se desespere. TAB deve dar-lhe algumas indicações de tempo. Então, no exemplo acima, todas as notas são espaçadas uniformemente para que você pode razoavelmente assumir que as notas têm o mesmo comprimento (talvez todos colcheias ou colcheias), mas isso pode nem sempre ser verdade, depende de quem escreveu o TAB.

Como regra geral, o espaçamento das notas no TAB deve indicar quais notas são as longas e quais são as curtas e rápidas, mas obviamente não vai te dizer se uma nota é um terceto ou algo parecido. Portanto, novamente, isso vai depender fortemente da pessoa que escreveu a TAB.

Por exemplo, aqui estão as primeiras notas do American National Hino em TAB. Assim, você deve ver claramente que os diferentes espaçamentos corresponde aos diferentes comprimentos de nota.

E ----------------------- 0 -------- 4--2-0 ----------- ---------------

B --- 0 -------------- 0 ------------------------------ --- 0 -----------

G ------ 1 ------ 1 ---------------------------- 1 ---- 3- ---------------

D -------- 2 ---------------------------------------- ---------------

A------------------------------------------------- ---------------

E ------------------------------------------------- ---------------

Obviamente, será muito mais fácil tocar TAB para uma música que você sabe bem do que por uma música que você nunca ouviu falar, porque você vai já está familiarizado com os ritmos da canção familiar.

Outros símbolos usados ​​em tablaturas

Até agora, verifiquei quais notas tocar: qual corda tocar e onde se preocupar. Então, eu mencionei como ter uma ideia da duração das notas olhando para os espaços entre as notas no TAB, mas isso só pode ser um guia aproximado. Assim, você sempre terá que verificar com a trilha sonora para trabalhar os detalhes do ritmo.

Muitas outras informações importantes podem ser incluídas em uma parte da tablatura violão. Dessa forma, isso inclui martelo-ons, pull offs, slides, curvas, vibrato e assim por diante.

A prática padrão é escrever letras ou símbolos extras entre as notas para indicar como jogá-los. Aqui estão as letras / símbolos mais usado frequentemente :

  • h – martelar
  • p – puxar
  • b – dobrar a corda para cima
  • r – curva de liberação
  • / – deslize para cima
  • \ – Deslize para baixo
  • v – vibrato (às vezes escrito como ~)
  • t – torneira à direita
  • x – toque ‘nota’ com forte amortecimento

Para slides, “s” às vezes é usado para indicar um slide para cima ou para baixo. Os símbolos para harmônicos são explicados abaixo na Seção 3.2. Esse último, o “x”, é usado para obter um som instável e percussivo. Você geralmente usa a mão de traste para umedecer levemente as cordas, que quando você escolhe a nota, ela soa morta.

Observe que o uso de ‘x’ é totalmente diferente do uso de um ‘x’ ao dar formas de acordes.

Por exemplo, se você escreveu o acorde de Ré, você veria:

EADGBE

xx0232

onde os ‘x’s significam não tocar esta corda. Na guia, é implicitamente assumido que uma corda não é tocada se não for marcado. Portanto, o mesmo acorde em tablatura seria:

E ----- 2 ------------------------------------------- ---------------

B ----- 3 ------------------------------------------- ---------------

G ----- 2 ------------------------------------------- ---------------

D ----- 0 ------------------------------------------- ---------------

A------------------------------------------------- ---------------

E ------------------------------------------------- ---------------

sem ‘x’. O x é usado apenas em tablatura para representar um forte corda silenciada que é tocada / dedilhada para dar um som percussivo.

Há uma série de outros símbolos para coisas como curvas de barra whammy, pegar arranhões e assim por diante. Assim, parece não haver um padrão particular na maneira de escrevê-los, os detalhes devem ser fornecidos na tablatura para explicar o que os símbolos significam.

Bass TAB provavelmente precisará de alguns símbolos extras para lidar com o diferentes técnicas usadas no baixo por exemplo, tapa e ‘estalando’ a corda com o polegar ou o dedo médio. Você pode usar ‘s’ para tapa e ‘p’ para pop, desde que você escreva eles embaixo das linhas da guia para distingui-los do slide e retire o que seria escrito nas linhas da guia.


Hammer ons e pull offs

Com martelos e pull-offs, você pode encontrar coisas como estas:

E ------------------------------------------------- ---------------

B ------------------------------------------------- ---------------

G ------------------------------------------------- ---------------

D ------------------------------------------------- ---------------

A --------- 5h7 ----------- 5h7 --------------------------- -----------

E --- 0--0 ---------- 0--0 ---------------------------- ---------------

o que significaria tocar o E aberto duas vezes, depois acertar a corda A no 5ª casa e martelo na 7ª casa.

Os pull offs são muito semelhantes:

E ---- 3p0 -------------------------------------------- -------------

B --------- 3p0 --------------------------------------- -------------

G -------------- 2p0 ---------------------------------- -------------

D ------------------- 2 ----------------------------- ---------------

A------------------------------------------------- ---------------

E ------------------------------------------------- ---------------

Aqui temos uma escala de blues decrescente usando pull-offs para o aberto cordas. Assim, para cada retirada, você escolhe apenas a primeira nota do par com a mão direita. Então, neste exemplo, você escolheria todos os notas na 3ª e 2ª casa, e as cordas abertas seriam soou puxando.

Porque você dá à corda um pouco mais de energia quando martela e puxe, você só precisa acertar a primeira nota com a mão palhetada. Dessa forma, você pode até ter uma longa série de marteladas e pull-offs como esta :

E ------------------------------------------------- ---------------

B ------------------------------------------------- ---------------

G --- 2h4p2h4p2h4p2h4p2h4p2 ----------------------------------------

D ------------------------------------------------- ---------------

A------------------------------------------------- ---------------

E ------------------------------------------------- ---------------

Nesse caso, você escolhe apenas a primeira nota.

Nota – você pode ver outros símbolos usados ​​para significar martelo ligado ou puxado, para exemplo “^” pode ser usado para significar martelar e puxar, por exemplo:

G --- 2 ^ 4 ^ 2 ----

o que significaria “acertar a nota na 2ª casa, martelar na 4ª e pull-off para a 2ª casa “. Tornaria as coisas mais fáceis se todos usassem os mesmos símbolos, a menos que você tem uma forte objeção a ‘h’ e ‘p’, use-os. Portanto, em qualquer caso, para qualquer guia que enviar, você deve sempre explicar quais são seus símbolos quer dizer, se você usar algo ‘não convencional’, certifique-se de explicar o que é meios.

 

Curvas

Quando as dobras estão envolvidas, você precisa saber o quanto dobrar a nota acima. Então, isso é indicado escrevendo um número após o ‘b’. Por exemplo, se você ver isto:

E ------------------------------------------------- ---------------

B ------ 7b9 ------------------------------------------ -------------

G ------------------------------------------------- ---------------

D ------------------------------------------------- ---------------

A------------------------------------------------- ---------------

E ------------------------------------------------- ---------------

significa tocar a corda B na 7ª casa e, em seguida, dobre a nota para cima dois semitons (um passo inteiro) para que soe com a mesma altura que uma nota tocada na 9ª casa serviria. Porém, as vezes, a curva é escrito com a segunda parte entre colchetes, assim — 7b (9) —

Algo assim :

E ------------------------------------------------- ---------------

B ------ 7b9--9r7 --------------------------------------- -----------

G ------------------------------------------------- ---------------

D ------------------------------------------------- ---------------

A------------------------------------------------- ---------------

E ------------------------------------------------- ---------------

significa tocar a nota na 7ª casa, dobrar dois semitons, tocar o observe novamente enquanto ainda está dobrado, em seguida, libere a dobra para que o nota tem seu tom normal. Portanto, as vezes, uma pré-curvatura é usada, é aqui que a corda é dobrada * antes * da nota ser tocada. Assim, depois de golpear a nota, a curva é liberado. As pré-curvas geralmente são escritas assim:

E ------------------------------------------------- ---------------

B ------ (7) b9r7 --------------------------------------- -----------

G ------------------------------------------------- ---------------

D ------------------------------------------------- ---------------

UMA------------------------------------------------- ---------------

E ------------------------------------------------- ---------------

Isso significa: friccione a nota na 7ª casa e dobre a corda até dois semitons (sem realmente tocar a nota). Então, agora golpeie a corda e libere a curva.

Às vezes, você consegue uma nota que é dobrada apenas um quarto de tom ou algo assim. Entretanto neste caso, pareceria um pouco estranho escrever:

B -------- 7b7.5 --------

se você tiver que dobrá-lo, vale a pena metade de um traste. Em vez disso, é escrito como:

      dobrar para cima 1/4 de tom

E ------------------------------------------------- ---------------

B ------ 7b ------------------------------------------ --------------

G ------------------------------------------------- ---------------

D ------------------------------------------------- ---------------

A------------------------------------------------- ---------------

E ------------------------------------------------- ---------------

com instruções sobre quanto dobrar escritas acima da nota.

 

Slides

Os símbolos mais comuns usados ​​para slides são / para um slide para cima e \ para um slide para baixo.

Você também pode ver ‘s’ usado para significar slide.

Você nem sempre precisa de símbolos separados para slides “para cima” e “para baixo” desde uma linha de leitura TAB:

E ------------------------------------------------- ---------------

B ------ 7/9 ---------------------------------------- ---------------

G ------------------------------------------------- ---------------

D ------------------------------------------------- ---------------

A------------------------------------------------- ---------------

E ------------------------------------------------- ---------------

é claramente um slide -se de 7 a 9 traste. No entanto, você pode também ver coisas como estas:

E ------------------------------------------------- ---------------

B ------ / 7-9-7 \ ------------------------------------ ---------------

G ------------------------------------------------- ---------------

D ------------------------------------------------- ---------------

A------------------------------------------------- ---------------

E ------------------------------------------------- ---------------

Onde o início ou término exato de um slide não é fornecido. Aqui você tem que saber se você está deslizando para cima ou para baixo. Nestes casos, use seu julgamento para escolher o traste inicial ou final. Assim, o efeito normalmente desejado é ter uma nota “mergulhando” de um tom mais baixo ou caindo repentinamente no tom conforme a nota desaparece.

Você poderia ter uma série de slides rodando juntos, como este:

E ------------------------------------------------- ---------------

B ------ 09/07/11 \ 9 \ 7 \ 6 \ 7 ------------------------------ --------------

G ------------------------------------------------- ---------------

D ------------------------------------------------- ---------------

A------------------------------------------------- ---------------

E ------------------------------------------------- ---------------

O que significaria que você só tocaria a primeira nota com a palheta usando a sustentação para produzir as outras notas.

 

Informações de comprimento de nota

Ocasionalmente, você encontrará tablaturas que inclui informações sobre todos dos comprimentos das notas. Parece não haver um “padrão” particular maneira de fazer isso, mas geralmente envolve uma linha de letras ou símbolos acima da tablatura.

Veja abaixo (Seção 3.2 parte 6) para mais detalhes.

Se a explicação dos símbolos de tempo não for dada na tablatura violão, então você tem um problema! Neste caso, um e-mail rápido para o autor para pedir esclarecimento é o único caminho a seguir.


Tablatura Violão – Como Escrever

 

Começando a escrever tablaturas

Talvez uma das coisas mais importantes a fazer antes de começar digitar um pedaço de tablatura é decidir exatamente quanta informação para incluir nele. Assim, o truque é transmitir a quantidade certa de informações de forma clara e de fácil leitura.

As perguntas que você pode fazer a si mesmo são:

  • A música é tocada principalmente com acordes?
  • Existem vários riffs que aparecem ao longo da música?
  • Existe uma estrutura clara de verso / refrão / bit intermediário?

Ao planejar com antecedência, você deve ser capaz de produzir uma tablatura estruturada que não só será mais fácil para os outros lerem, mas também mais fácil para você digitar.

Também há escolhas a serem feitas ao decidir qual pacote usar ao digitar a tablatura. Então, tudo o que você realmente precisa é de um editor de texto simples, entretanto, um editor com mouse provavelmente tornará as coisas mais fáceis.

Quando você começa a digitar, economiza tempo se você desenhar uma pauta em branco e faça 8 ou 10 cópias antes de começar a digitar os números do traste etc.

Se você usar um pacote mais complicado como o Microsoft Word, certifique-se de que os caracteres que você usa têm todos o mesmo comprimento. Dessa forma, se um caractere ‘m’ for mais largo do que um caractere ‘i’, então seu TAB ficará muito estranho em outro editor de texto. Escolha uma fonte onde todos os charcters têm a mesma largura, Arial, Courier… geralmente faz o trabalho.

 

Escrever tablatura ou não escrever

Se uma música puder ser bem descrita apenas com acordes, será muito mais fácil de ler e escrever se você usar apenas as formas de acordes, do que separar os acordes.

Assim, se você apenas enviar os acordes, as coisas ficarão muito mais claras se você fornecer as formas dos acordes também. Por exemplo, se você quiser enviar ‘Gallows Pole’ do Led Zeps, pode escrever:

Introdução: A7 G / A A7 Am7 Dadd4 / A A7 G / A A7 Am7 Dadd4 / A



Verso: A7 G / A A7 Am7 Dadd4 / A A7 G / A A7 Am7 Dadd4 / A

         A7 G / A A7 Am7 Dadd4 / AGD

         A7 G / A A7 Am7 Dadd4 / A A7 G / A A7 Am7 Dadd4 / A

Agora está tudo bem, mas quantas pessoas realmente sabem jogar Dadd4 / A do topo de suas cabeças?

O que você precisa fazer é incluir algumas formas de acordes como esta:

EADGBE EADGBE EADGBE EADGBE EADGBE EADGBE

x02020 x02010 x04035 320033 xx0232 x00000



  A7 Am7 Dadd4 / AGDG / A


Para remover esses acordes, levará muito mais tempo para digitar, e provavelmente levará muito mais tempo para as pessoas lerem e entenderem. Assim, onde uma música é baseada em acordes como este, isso torna as coisas muito mais fácil se você apenas fornecer formas e nomes de acordes e, em seguida, mostrar onde os acordes vão em relação às palavras.

Coisas a fazer ao escrever tablaturas

Uma das considerações mais importantes ao digitar tablatura é fazer claro e facilmente legível.

Existem algumas coisas simples que você pode fazer para que as coisas funcionem.

  • Use espaços em tablaturas!

    É incrível a diferença que pode fazer se você inserir algumas linhas em branco no lugar certo. Portanto, se você está acostumado a escrever as palavras acima ou abaixo as linhas do TAB certifique-se de deixar algumas linhas livres para que seja claro se as palavras pertencem à linha de TAB acima ou abaixo. Então, espace as linhas individuais do TAB e tudo será muito mais fácil para os outros entenderem.

    • h – martelar
    • p – puxar
    • b – dobrar a corda para cima
    • r – curva de liberação
    • / – deslize para cima
    • \ – deslize para baixo
    • v – vibrato (às vezes escrito como ~)
    • t – tap (com a mão dedilhada)
    • x – silenciado, corda tocada

                                                                                                                                                                                            

      harmônicos

      Quando você chega aos harmônicos, pode ver uma variedade de símbolos. Entretanto, mesmo na notação musical padrão, uma forma aceita de escrever harmônicos naturais e artificiais nunca foram combinados! No entanto, usar colchetes é a maneira padrão de escrever harmônicos, então, um harmônico natural na 12ª casa seria:

      E ------------------------------------------------- ---------------
      
      B ------------------------------------------------- ---------------
      
      G ------------------------------------------------- ---------------
      
      D ------------------------------------------------- ---------------
      
      A------------------------------------------------- ---------------
      
      E ------ <12> ---------------------------------------- ---------------
      
      
      Os colchetes normais “()” às vezes são usados ​​para notas de graça ou opcionais, Porém, notas com colchetes pontiagudos “<>” é a escolha usual para harmônicos. Assim, porque não há padrões (em música escrita ou tablatura) para distinguir entre harmônicos naturais e artificiais, alguma confusão às vezes surge. Então, se você está escrevendo alguma guia com harmônicos, é melhor adicionar uma nota para dizer se eles são harmônicos naturais (a maioria comumente no 5º, 7º e 12º trastes) ou artificial (comprimido) harmônicos. Portanto, com harmônicos artificiais, você tem que friccionar uma nota com a mão esquerda (digamos na 2ª casa) e aperte o harmônico em uma oitava acima (na 14ª casa), então você deve deixar claro se o número que você escreve na guia é a nota com trastes ou comprimida. É mais comum para separar as notas comprimidas, se você vir uma guia como esta:
E ------------------------------------------------- ---------------
B ------------------------------------------------- --------------- G ------------------------------------------------- --------------- D ------------------------------------------------- --------------- A------------------------------------------------- --------------- E ------ <14> - <16> - <17> - <16> - <14> -------------------- ----------

Geralmente significará notas da casa na 2ª, 4ª e 5ª casas, e toque os harmônicos artificiais nos trastes mostrados na guia.

 

Defina os símbolos para usar na tablatura.

Tornaria a vida de todos muito mais fácil se todos usassem o mesmo símbolos para martelos, curvas, etc.

Porém, se você está convencido de que sua maneira particular de escrever se curva e slides fazem muito mais sentido do que qualquer outra pessoa, tudo bem, desde que enquanto você diz a todos qual sistema você usa.

Então. faz muito sentido iniciar seu arquivo TAB com uma lista de símbolos usados.

A lista dos símbolos mais comumente usados ​​está abaixo:

  • Bits de etiqueta de tablatura

    Isso torna as coisas muito mais fáceis se você puder ver onde o ‘versículo’ e partes de ‘refrão’ de uma música são, então coloque algumas etiquetas em certos lugares para guiar as pessoas através dele.

    Muitas músicas terão estruturas claras de ‘verso’ e ‘refrão’, então você pode separar os riffs / acordes ou qualquer coisa para eles apenas uma vez, e então indique onde eles são repetidos. Ou talvez alguns riffs importantes que são usados, então TAB-los e rotulá-los ‘Riff One’ e ‘Riff Two’, então quando eles aparecem mais tarde na música você pode apenas dizer ‘repetir Riff One quatro vezes’ em vez de tabular a coisa toda novamente.

    Contanto que esteja claro quais bits de tablatura vão com qual rótulo, você vai economizar tempo dessa forma, além de tornar mais fácil leia para os outros.

  • Incluir Artista / álbum nas tablaturas

    É útil para outras pessoas saberem onde encontrar a música original, então, no início de cada tablatura inclua algumas informações sobre os artistas que gravaram o original e o álbum em que a música pode ser encontrada.

  • Faça comentários gerais na tablatura

    Também é útil incluir algumas linhas no início do tablatura para explicar o estilo da música ou para apontar importantes recursos como afinações alternativas, uso de capos etc.

    Algumas palavras como “use um staccato, tipo funky de estilo de dedilhar para os acordes, depois mude para um estilo sustentado sentir a linha principal “ajudará as pessoas a ter uma ideia de como abordar o estilo de jogo.

    Informações sobre o tipo de guitarra (elétrica / acústica, 6 cordas / 12 cordas) e os efeitos usados ​​seriam úteis.

    Um ponto sobre o uso de capos e afinações alternativas na tablatura

    Para tablaturas usando um capo, é prática padrão escrever o números dos trastes relativos à posição do capo. Então, se você tivesse uma forma de D maior com um capo na 2ª casa o TAB seria:

    E ---- 2 -------------------------------------------- ---------------
    
    B ---- 3 -------------------------------------------- ---------------
    
    G ---- 2 -------------------------------------------- ---------------
    
    D ---- 0 -------------------------------------------- ---------------
    
    A------------------------------------------------- ---------------
    
    E ------------------------------------------------- ---------------
    
    
    As notas com trastes nas três cordas superiores estão 2 ou 3 trastes acima do posição capo, então eles são escritos com os números 2 ou 3, mesmo embora você realmente friccione as notas na 4ª e 5ª casas.

    Ao escrever os nomes dos acordes tocados com um capo, geralmente melhor usar nomes de acordes que levem em consideração o tom real do notas. Por exemplo, no exemplo da guia acima, os guitarristas reconhecem o forma de acorde como uma “forma de D”, mas porque o capo está na 2ª casa, o acorde real é um Mi (2 semitons acima de um Ré), então você deve escrever o nome do acorde como E. Assim torna mais fácil para outros músicos (ou outros guitarristas que não estão usando um capo) para tocar junto no tom certo.

     

    É semelhante a tablatura violão para violões afinados em um semitom ou tom mais baixo do que o normal. Portanto, se uma música deve ser tocada com o violão sintonizado em Eb Ab Db Gb Bb Eb, e tem este acorde:

    Eb ----- 0 ------------------------------------------- --------------
    
    Bb ----- 0 ------------------------------------------- --------------
    
    Gb ----- 1 ------------------------------------------- --------------
    
    Db ----- 2 ------------------------------------------- --------------
    
    Ab ----- 2 ------------------------------------------- --------------
    
    Eb ----- 0 ------------------------------------------- --------------
    
    
    embora “pareça um acorde E”, é na verdade um Eb, por causa da afinação, portanto, a longo prazo, evita confusão chamá-lo de Eb.

     

  • Informação de tempo na tablatura

    Você pode querer levar muito a sério e incluir detalhes dando o ritmo preciso da peça. Dessa forma, isso envolverá muito mais digitação, mas isso significa todas as informações necessário para tocar a peça é fornecido explicitamente.

    Assim, uma maneira de abordar isso é escrever uma linha de travessões intercalados com números que contam as batidas. Então, em 4-4 vezes, você teria: 1 — 2 — 3 — 4 — 1 — 2 — 3 — 4 — etc Abaixo, você pode escrever uma linha de d’s e u’s para representar traços para baixo e para cima. Aqui está um exemplo simples em que o ritmo é 2 semínimas (semínimas) seguido por 4 colcheias (semínimas)

    1 --- 2 --- 3 --- 4 --- 1 --- 2 --- 3 --- 4 --- etc
    
    d --- d --- dudud --- d --- dudu-
    
    
    Você pode expandir isso para usar letras maiúsculas e minúsculas para indicar acentos e assim por diante. Se você usar este método, certifique-se de separar claramente o 2 linhas de informação de ritmo das 6 linhas do TAB !!!

     

    Uma outra maneira de incluir informações de tempo é usar um letra / símbolo para cada tipo de nota.

    Por exemplo, use e para semicolcheia (colcheia), s para semicolcheia (semi- colcheia) e assim por diante. Contudo, as letras que você usa podem diferir dependendo sobre qual sistema você está acostumado. com o sistema americano de semínimas, 8as notas etc ou o sistema inglês de manias e colcheias, mas o método é o mesmo.

    Se você não tem certeza das ‘traduções’ aqui estão elas:

    todo nãosemibreve
    meia notamínima
    semínimacrotchet
    8ª notacolcheia
    16ª notasemicolcheia
    32ª notademisemiquaver
    64ª notahemidemisemiquaver

    Basta escrever as letras acima da nota correspondente no ABA. (Certifique-se de definir quais letras / símbolos você usa)

    Aqui está um exemplo de como isso se parece:

    Este é o riff de abertura de Ticket To Ride dos Beatles

        qeetttqeettt
    
    
    
    E -------- 0 ----------- 0 -------- 0 ----------- 0 ------- ---------------
    
    B ----------- 2 ----- 0 -------------- 2 ----- 0 ---------- ---------------
    
    G --- 2 ---------- 2 ---------- 2 --------- 2 ------------- ---------------
    
    D ------------------------------------------------- ---------------
    
    A------------------------------------------------- ---------------
    
    E ------------------------------------------------- ---------------
    
    
    Aqui eu usei “q” para semínima, e para colcheia e “t” para tercina semínima.

    Se você quiser enviar uma tablatura com informações de ritmo como esta então é essencial explicar o sistema que você usa. Assim, tenho visto muitos sistemas diferentes de letras e números de diferentes graus de simplicidade e legibilidade. Dessa forma, o que você escolher usar, você terá que explicar todos os seus símbolos para se certificar de que outros pode descobrir o que diabos você está falando.

    Se você quiser dar algumas pistas sobre o ritmo da tablatura, mas não quer se envolver muito, o uso de linhas de barra é um método eficaz forma de transmitir informações de tempo.

    Basta inserir uma linha vertical de “|” para indicar o final de um Barra. Então, usando o exemplo do hino nacional que eu tinha antes, com bar linhas se parece com isto:

    E -------- | --------------- | 0 -------- 4--2- | 0 -------- ------ | --------
    
    B --- 0 ---- | ---------- 0 ---- | -------------- | --------- ------ | 0 -------
    
    G ------ 1- | ----- 1 --------- | -------------- | ----- 1 --- -3 ---- | --------
    
    D -------- | 2 -------------- | -------------- | --------- ------ | --------
    
    A -------- | --------------- | -------------- | --------- ------ | --------
    
    E -------- | --------------- | -------------- | --------- ------ | --------
    
    

     

  • Letra da música na tablatura

    É muito mais fácil seguir um trecho de TAB quando você tem pelo menos algumas das letras a seguir, e você pode combinar as notas / riffs no TAB para as letras.

    Tente incluir letras para pelo menos o primeiro verso e refrão. Se você não tem certeza das palavras, há uma grande coleção de letras de músicas que você pega pela net.

     

Coisas para evitar em tablaturas

  • Tablatura Wraparound

    Um dos problemas mais comuns ao escrever tablatura é o contorno do texto. Isso torna o TAB quase impossível de ler, mas é muito fácil evitado.

    O problema ocorre quando você escreve uma linha de tablatura que é talvez 80 ou 90 caracteres. Para muitas pessoas, isso é muito amplo para sua tela. Então o que deveria ser uma única linha de guia acaba sendo dividido em duas linhas.

    (Este problema ocorre apenas com arquivos de texto, não com HTML. Eu simulei o efeito abaixo)

    Aqui está o que parece a tablatura:

    E --------------------------------------------- 0 --- --------------------------------------------
    
    B --------------------------------------- 2--4 ----- 4 --2 -----------------------------------------
    
    G ------------------------------ 1--2--4 ------------ ----- 4--2--1 --------------------------------
    
    D --------------------- 1--2--4 --------------------- -------------- 4--2--1 -----------------------
    
    A ------------ 0--2--4 ------------------------------ ----------------------- 4--2--0 --------------
    
    E --- 0--2--4 --------------------------------------- -------------------------------- 4--2--0 -----
    
    
    Isso parece muito estranho quando você vê. Quando eu escrevi, usando o ‘Notepad’ do Windows, parecia bom porque eu poderia caber tudo em uma tela. Porém, para a maioria dos leitores de notícias, é muito longo e você encontra problemas.

    Tudo que você precisa fazer é ter cuidado ao digitar TAB para a largura máxima da linha é, digamos, 60 caracteres.

    Tentei fazer isso neste FAQ para que a largura máxima seja de cerca

    | ------------------------------------------------- -------------- |
    
    
    tanto. Se você limitar suas tablaturas da mesma maneira, você deve estar OK.

    Claro, se a tablatura não se envolver em torno o autor, pode não perceber porque parecia bom em sua tela quando eles escreveram. Assim, pode valer a pena informá-los do problema, para que possam ter cuidado no futuro.

  • Tablatura muito comprimida

    É incrível como é fácil estragar um bom pedaço de tablatura por não espaçá-lo de modo que o resultado final seja uma massa de tablatura apertada, explicações, rótulos etc.

    Quando terminar de digitar, volte para a tablatura e veja se consegue insira algumas linhas em branco aqui e ali para separar o verso do refrão como queiras. Portanto, isso realmente torna muito mais fácil para os outros lerem.

    Também pode valer a pena considerar se você incluiu muitos detalhes na tablatura. Normalmente, esse não será o caso, mas eu vi algumas tablaturas que entram em grandes detalhes, mas são extremamente desanimadores para tente ler por causa da quantidade de informações.

  • Repetição desnecessária na tablatura

    Se uma linha de tablatura ou um riff em particular for repetido várias vezes em seguida, economize o esforço, pressione TAB uma vez.

    Também é mais fácil ler assim.

Como já dito aprender a ler tablaturas é fácil. Porém para aplicar, transformar em música, o recomendado é ser guiado por um tutor e ter materiais apropriado, com metodologias para evoluir no seu aprendizado. Conheça aqui um sistema que vai te carregar passo a passo até você alcançar seu sonho.

UUFAAA, acho que isso da uma boa noção do que você precisa saber sobre como ler e escrever TABLATURA. Se houver algo importante que você acha que não comentei, deixei um comentário abaixo para melhorarmos!

Você pode querer ver também aulas de violão!

 


Posts relacionados

 

Aulas de violão

Aulas de Violão – Sua Primeira Aula

Você pode se perguntar por que tem que ler música. Mesmo que seja gratuita, como … Leia mais

12 comments
Aprender tocar violão

Como Aprender a Tocar Violão

Este artigo fala sobre as coisas mais importantes que você simplesmente deve saber ao começar … Leia mais

1 comment
Acordes

Acordes de Violão – Teoria Musical

  Solar sobre acordes de violão é fácil quando você sabe como usar a escala … Leia mais

2 comments
Como comprar violão

Comprar Violão – Guia para Iniciantes

Saber comprar violão e como identificar uma guitarra ruim vai te poupar de inúmeras dores … Leia mais

1 comment
Como cuidar do violão

Como Cuidar do Violão

Quando se possui um violão, temos que saber como cuidar do violão, muitas pessoas pensam … Leia mais

1 comment
Violão papa iniciantes

Violão para Iniciantes

Com a crescente popularidade da música rock durante as últimas décadas, violão para iniciantes tornou-se … Leia mais

1 comment
Tablatura

Tablatura – Aprenda Como Ler e Escrever

COMO LER E ESCREVER TABLATURA UM GUIA PARA NOTAÇÃO DE TABLATURA     Conteúdo O … Leia mais

1 comment
Ajude a melhorar esse artigo, de um like ou compartilhe isso. Obrigado!

1 comentário em “Tablatura – Aprenda Como Ler e Escrever”

  1. Excelente artigo de tablatura, bem extenso e explicativo, bom trabalho e obrigado por compartilhar…

    Responder

Deixe um comentário